0
SECTION
2
HEADER
9
$INSUNITS
70
4
9
$ACADVER
1
AC1014
9
$HANDSEED
5
FFFF
0
ENDSEC
0
SECTION
2
TABLES
0
TABLE
2
VPORT
5
8
100
AcDbSymbolTable
0
ENDTAB
0
TABLE
2
LTYPE
5
5
100
AcDbSymbolTable
0
LTYPE
5
14
100
AcDbSymbolTableRecord
100
AcDbLinetypeTableRecord
2
BYBLOCK
70
0
0
LTYPE
5
15
100
AcDbSymbolTableRecord
100
AcDbLinetypeTableRecord
2
BYLAYER
70
0
0
ENDTAB
0
TABLE
2
LAYER
5
2
100
AcDbSymbolTable
70
2
0
LAYER
5
50
100
AcDbSymbolTableRecord
100
AcDbLayerTableRecord
2
0
70
0
6
CONTINUOUS
0
ENDTAB
0
TABLE
2
STYLE
5
3
100
AcDbSymbolTable
70
1
0
STYLE
5
11
100
AcDbSymbolTableRecord
100
AcDbTextStyleTableRecord
2
STANDARD
70
0
0
ENDTAB
0
TABLE
2
VIEW
5
6
100
AcDbSymbolTable
70
0
0
ENDTAB
0
TABLE
2
UCS
5
7
100
AcDbSymbolTable
70
0
0
ENDTAB
0
TABLE
2
APPID
5
9
100
AcDbSymbolTable
70
2
0
APPID
5
12
100
AcDbSymbolTableRecord
100
AcDbRegAppTableRecord
2
ACAD
70
0
0
ENDTAB
0
TABLE
2
DIMSTYLE
5
A
100
AcDbSymbolTable
70
1
0
ENDTAB
0
TABLE
2
BLOCK_RECORD
5
1
100
AcDbSymbolTable
70
1
0
BLOCK_RECORD
5
1F
100
AcDbSymbolTableRecord
100
AcDbBlockTableRecord
2
*MODEL_SPACE
0
BLOCK_RECORD
5
1B
100
AcDbSymbolTableRecord
100
AcDbBlockTableRecord
2
*PAPER_SPACE
0
ENDTAB
0
ENDSEC
0
SECTION
2
BLOCKS
0
BLOCK
5
20
100
AcDbEntity
100
AcDbBlockBegin
2
*MODEL_SPACE
0
ENDBLK
5
21
100
AcDbEntity
100
AcDbBlockEnd
0
BLOCK
5
1C
100
AcDbEntity
100
AcDbBlockBegin
2
*PAPER_SPACE
0
ENDBLK
5
1D
100
AcDbEntity
100
AcDbBlockEnd
0
ENDSEC
0
SECTION
2
ENTITIES
0
LINE
5
100
100
AcDbEntity
8
0
100
AcDbLine
10
100
20
-60
30
0
11
0
21
-60
31
0
0
LINE
5
101
100
AcDbEntity
8
0
100
AcDbLine
10
100
20
0
30
0
11
103.5
21
0
31
0
0
LINE
5
102
100
AcDbEntity
8
0
100
AcDbLine
10
103.5
20
-6.0000000000000009
30
0
11
100
21
-6.0000000000000009
31
0
0
LINE
5
103
100
AcDbEntity
8
0
100
AcDbLine
10
100
20
-12.000000000000002
30
0
11
103.5
21
-12.000000000000002
31
0
0
LINE
5
104
100
AcDbEntity
8
0
100
AcDbLine
10
103.5
20
-18.000000000000004
30
0
11
100
21
-18.000000000000004
31
0
0
LINE
5
105
100
AcDbEntity
8
0
100
AcDbLine
10
100
20
-24.000000000000004
30
0
11
103.5
21
-24.000000000000004
31
0
0
LINE
5
106
100
AcDbEntity
8
0
100
AcDbLine
10
103.5
20
-30.000000000000004
30
0
11
100
21
-30.000000000000004
31
0
0
LINE
5
107
100
AcDbEntity
8
0
100
AcDbLine
10
100
20
-36.000000000000007
30
0
11
103.5
21
-36.000000000000007
31
0
0
LINE
5
108
100
AcDbEntity
8
0
100
AcDbLine
10
103.5
20
-42.000000000000014
30
0
11
100
21
-42.000000000000014
31
0
0
LINE
5
109
100
AcDbEntity
8
0
100
AcDbLine
10
100
20
-48.000000000000007
30
0
11
103.5
21
-48.000000000000007
31
0
0
LINE
5
110
100
AcDbEntity
8
0
100
AcDbLine
10
103.5
20
-54
30
0
11
100
21
-54
31
0
0
LINE
5
111
100
AcDbEntity
8
0
100
AcDbLine
10
50
20
10
30
0
11
50
21
-72.295767348093023
31
0
0
LINE
5
112
100
AcDbEntity
8
0
100
AcDbLine
10
0
20
0
30
0
11
-3.4999999999999964
21
0
31
0
0
LINE
5
113
100
AcDbEntity
8
0
100
AcDbLine
10
-3.4999999999999964
20
-6.0000000000000009
30
0
11
0
21
-6.0000000000000009
31
0
0
LINE
5
114
100
AcDbEntity
8
0
100
AcDbLine
10
0
20
-12.000000000000002
30
0
11
-3.4999999999999964
21
-12.000000000000002
31
0
0
LINE
5
115
100
AcDbEntity
8
0
100
AcDbLine
10
-3.4999999999999964
20
-18.000000000000004
30
0
11
0
21
-18.000000000000004
31
0
0
LINE
5
116
100
AcDbEntity
8
0
100
AcDbLine
10
0
20
-24.000000000000004
30
0
11
-3.4999999999999964
21
-24.000000000000004
31
0
0
LINE
5
117
100
AcDbEntity
8
0
100
AcDbLine
10
-3.4999999999999964
20
-30
30
0
11
0
21
-30
31
0
0
LINE
5
118
100
AcDbEntity
8
0
100
AcDbLine
10
0
20
-36.000000000000007
30
0
11
-3.4999999999999964
21
-36.000000000000007
31
0
0
LINE
5
119
100
AcDbEntity
8
0
100
AcDbLine
10
-3.4999999999999964
20
-42.000000000000014
30
0
11
0
21
-42.000000000000014
31
0
0
LINE
5
120
100
AcDbEntity
8
0
100
AcDbLine
10
0
20
-48.000000000000007
30
0
11
-3.4999999999999964
21
-48.000000000000007
31
0
0
LINE
5
121
100
AcDbEntity
8
0
100
AcDbLine
10
-3.4999999999999964
20
-54
30
0
11
0
21
-54
31
0
0
LINE
5
122
100
AcDbEntity
8
0
100
AcDbLine
10
48.25
20
-29.999999999999996
30
0
11
51.75
21
-29.999999999999996
31
0
0
LINE
5
123
100
AcDbEntity
8
0
100
AcDbLine
10
0
20
-12.000000000000002
30
0
11
0
21
-6.0000000000000009
31
0
0
LINE
5
124
100
AcDbEntity
8
0
100
AcDbLine
10
0
20
-24.000000000000004
30
0
11
0
21
-18.000000000000004
31
0
0
LINE
5
125
100
AcDbEntity
8
0
100
AcDbLine
10
0
20
-36.000000000000007
30
0
11
0
21
-30
31
0
0
LINE
5
126
100
AcDbEntity
8
0
100
AcDbLine
10
0
20
-60
30
0
11
0
21
-54
31
0
0
LINE
5
127
100
AcDbEntity
8
0
100
AcDbLine
10
0
20
-48.000000000000007
30
0
11
0
21
-42.000000000000014
31
0
0
LINE
5
128
100
AcDbEntity
8
0
100
AcDbLine
10
0
20
0
30
0
11
47.75
21
0
31
0
0
LINE
5
129
100
AcDbEntity
8
0
100
AcDbLine
10
52.25
20
0
30
0
11
100
21
0
31
0
0
LINE
5
130
100
AcDbEntity
8
0
100
AcDbLine
10
100
20
-6.0000000000000009
30
0
11
100
21
-12.000000000000002
31
0
0
LINE
5
131
100
AcDbEntity
8
0
100
AcDbLine
10
100
20
-18.000000000000004
30
0
11
100
21
-24.000000000000004
31
0
0
LINE
5
132
100
AcDbEntity
8
0
100
AcDbLine
10
100
20
-30.000000000000004
30
0
11
100
21
-36.000000000000007
31
0
0
LINE
5
133
100
AcDbEntity
8
0
100
AcDbLine
10
100
20
-42.000000000000014
30
0
11
100
21
-48.000000000000007
31
0
0
LINE
5
134
100
AcDbEntity
8
0
100
AcDbLine
10
100
20
-54
30
0
11
100
21
-60
31
0
0
LINE
5
135
100
AcDbEntity
8
0
100
AcDbLine
10
47.75
20
0
30
0
11
47.75
21
-29.999999999999996
31
0
0
LINE
5
136
100
AcDbEntity
8
0
100
AcDbLine
10
47.75
20
-29.999999999999996
30
0
11
48.25
21
-29.999999999999996
31
0
0
LINE
5
137
100
AcDbEntity
8
0
100
AcDbLine
10
52.25
20
0
30
0
11
52.25
21
-29.999999999999996
31
0
0
LINE
5
138
100
AcDbEntity
8
0
100
AcDbLine
10
52.25
20
-29.999999999999996
30
0
11
51.75
21
-29.999999999999996
31
0
0
LINE
5
139
100
AcDbEntity
8
0
100
AcDbLine
10
-3.4999999999999964
20
0
30
0
11
-4.4999999999999964
21
0
31
0
0
LINE
5
140
100
AcDbEntity
8
0
100
AcDbLine
10
-4.4999999999999964
20
0
30
0
11
-4.4999999999999964
21
-6.0000000894069672
31
0
0
LINE
5
141
100
AcDbEntity
8
0
100
AcDbLine
10
-4.4999999999999964
20
-6.0000000894069672
30
0
11
-3.4999999999999964
21
-6.0000000000000009
31
0
0
LINE
5
142
100
AcDbEntity
8
0
100
AcDbLine
10
-4.4999999999999964
20
-12.000000000000002
30
0
11
-4.4999999999999964
21
-18.000000089406967
31
0
0
LINE
5
143
100
AcDbEntity
8
0
100
AcDbLine
10
-3.4999999999999964
20
-12.000000000000002
30
0
11
-4.4999999999999964
21
-12.000000000000002
31
0
0
LINE
5
144
100
AcDbEntity
8
0
100
AcDbLine
10
-4.4999999999999964
20
-18.000000089406967
30
0
11
-3.4999999999999964
21
-18.000000000000004
31
0
0
LINE
5
145
100
AcDbEntity
8
0
100
AcDbLine
10
-4.4999999999999964
20
-24.000000000000004
30
0
11
-4.4999999999999964
21
-30.000000089406971
31
0
0
LINE
5
146
100
AcDbEntity
8
0
100
AcDbLine
10
-3.4999999999999964
20
-24.000000000000004
30
0
11
-4.4999999999999964
21
-24.000000000000004
31
0
0
LINE
5
147
100
AcDbEntity
8
0
100
AcDbLine
10
-4.4999999999999964
20
-30.000000089406971
30
0
11
-3.4999999999999964
21
-30.000000000000004
31
0
0
LINE
5
148
100
AcDbEntity
8
0
100
AcDbLine
10
-4.4999999999999964
20
-36.000000000000007
30
0
11
-4.4999999999999964
21
-42.000000089406974
31
0
0
LINE
5
149
100
AcDbEntity
8
0
100
AcDbLine
10
-3.4999999999999964
20
-36.000000000000007
30
0
11
-4.4999999999999964
21
-36.000000000000007
31
0
0
LINE
5
150
100
AcDbEntity
8
0
100
AcDbLine
10
-4.4999999999999964
20
-42.000000089406974
30
0
11
-3.4999999999999964
21
-42.000000000000014
31
0
0
LINE
5
151
100
AcDbEntity
8
0
100
AcDbLine
10
-4.4999999999999964
20
-48.000000000000007
30
0
11
-4.4999999999999964
21
-54.000000089406974
31
0
0
LINE
5
152
100
AcDbEntity
8
0
100
AcDbLine
10
-3.4999999999999964
20
-48.000000000000007
30
0
11
-4.4999999999999964
21
-48.000000000000007
31
0
0
LINE
5
153
100
AcDbEntity
8
0
100
AcDbLine
10
-4.4999999999999964
20
-54.000000089406974
30
0
11
-3.4999999999999964
21
-54
31
0
0
LINE
5
154
100
AcDbEntity
8
0
100
AcDbLine
10
103.5
20
0
30
0
11
104.5
21
0
31
0
0
LINE
5
155
100
AcDbEntity
8
0
100
AcDbLine
10
104.5
20
0
30
0
11
104.5
21
-6.0000000894069672
31
0
0
LINE
5
156
100
AcDbEntity
8
0
100
AcDbLine
10
104.5
20
-6.0000000894069672
30
0
11
103.5
21
-6.0000000000000009
31
0
0
LINE
5
157
100
AcDbEntity
8
0
100
AcDbLine
10
103.5
20
-12.000000000000002
30
0
11
104.5
21
-12.000000000000002
31
0
0
LINE
5
158
100
AcDbEntity
8
0
100
AcDbLine
10
104.5
20
-12.000000000000002
30
0
11
104.5
21
-18.000000089406967
31
0
0
LINE
5
159
100
AcDbEntity
8
0
100
AcDbLine
10
104.5
20
-18.000000089406967
30
0
11
103.5
21
-18.000000000000004
31
0
0
LINE
5
160
100
AcDbEntity
8
0
100
AcDbLine
10
103.5
20
-24.000000000000004
30
0
11
104.5
21
-24.000000000000004
31
0
0
LINE
5
161
100
AcDbEntity
8
0
100
AcDbLine
10
104.5
20
-24.000000000000004
30
0
11
104.5
21
-30.000000089406971
31
0
0
LINE
5
162
100
AcDbEntity
8
0
100
AcDbLine
10
104.5
20
-30.000000089406971
30
0
11
103.5
21
-30.000000000000004
31
0
0
LINE
5
163
100
AcDbEntity
8
0
100
AcDbLine
10
103.5
20
-36.000000000000007
30
0
11
104.5
21
-36.000000000000007
31
0
0
LINE
5
164
100
AcDbEntity
8
0
100
AcDbLine
10
104.5
20
-36.000000000000007
30
0
11
104.5
21
-42.000000089406974
31
0
0
LINE
5
165
100
AcDbEntity
8
0
100
AcDbLine
10
104.5
20
-42.000000089406974
30
0
11
103.5
21
-42.000000000000014
31
0
0
LINE
5
166
100
AcDbEntity
8
0
100
AcDbLine
10
103.5
20
-48.000000000000007
30
0
11
104.5
21
-48.000000000000007
31
0
0
LINE
5
167
100
AcDbEntity
8
0
100
AcDbLine
10
104.5
20
-48.000000000000007
30
0
11
104.5
21
-54.000000089406974
31
0
0
LINE
5
168
100
AcDbEntity
8
0
100
AcDbLine
10
104.5
20
-54.000000089406974
30
0
11
103.5
21
-54
31
0
0
ENDSEC
0
SECTION
2
OBJECTS
0
DICTIONARY
5
C
100
AcDbDictionary
3
ACAD_GROUP
350
D
3
ACAD_MLINESTYLE
350
17
0
DICTIONARY
5
D
100
AcDbDictionary
0
DICTIONARY
5
1A
330
C
100
AcDbDictionary
0
DICTIONARY
5
17
100
AcDbDictionary
0
ENDSEC
0
EOF
